Posted by : Erick Elfrada Sinurat Minggu, 24 Juni 2012

      Am  Em  G   C   F
E|----0-------0---0---1------------------|
B|----1---0---2---1---1------------------| 
G|----2---0---0---0---2------------------|
D|----2---2---0---2---3------------------|
A|----0---2---2---3---3------------------| 
E|--------0---3---0---1------------------|






Intro

E|--------------1-0---------------------|
B|----1-------5-----1--1----1--0--------| 
G|*---2-----5----------2----------2----*|
D|*---2--/7------------3---------------*|
A|--------------------------------------| 
E|--------------------------------------|


Am       Em    G
This ain't a song for the broken hearted

   Am        Em     G
A silent prayer for faith departed

   Am    Em
I ain't gonna be just a face in the crowd

       C       G  Am
You're gonna hear my voice when I shout it out loud






Estribillo
(Chorus)

  Am    F          C
It's my life, it's now or never

         G     Am
I ain't gonna live forever

   F        C    Em  G
I just want to live when I'm alive

  Am      F  C
It's my life; my heart is like an open highway

            G  Am
Like franky said I did it my way,

        F      Em
I just wanna live when I'm alive

Em   G   C
It's my life


E|----------1-0--------------------|
B|--------5-----1--1----1--0-------| 
G|------5----------2----------2----|
D|---/7------------3---------------|
A|---------------------------------| 
E|---------------------------------|






Am         Em       G
This is for ones who stood their ground

      Am       Em    G
Like Tommy and Gina, never backed down

Am          C
Tomorrow's getting harder make no mistake

Em          G      Am
Luck ain't even lucky got to make your own breaks






Estribillo
(Chorus)

  Am    F          C
It's my life, it's now or never

         G     Am
I ain't gonna live forever

   F        C    Em  G
I just want to live when I'm alive

  Am      F  C
It's my life; my heart is like an open highway

            G  Am
Like franky said I did it my way,

        F      Em
I just wanna live when I'm alive

Em   G   C
It's my life





Puente
(Bridge)

      G          C
You better stand tall when they're calling you out

       Am       Em  G
Don't bend don't break baby don't back down 






Estribillo
(Chorus)

  Am    F          C
It's my life, it's now or never

         G     Am
I ain't gonna live forever

   F        C    Em  G
I just want to live when I'm alive

  Am      F  C
It's my life; my heart is like an open highway

            G  Am
Like franky said I did it my way,

        F      Em
I just wanna live when I'm alive

Em   G   C
It's my life


E|----------1-0---------------1-0-------------|
B|--------5-----1-----------5-----1-----1-----|
G|------5---------2-------5-------------2-----|
D|---/7----------------/7---------------2-----|
A|--------------------------------------------|
E|--------------------------------------------|

Leave a Reply

Subscribe to Posts | Subscribe to Comments

^^Find Me^^

^^Translate^^

^^God Enel^^

^^God Enel^^
My Favorite Anime Character

- Copyright © Elfrada.com - You'll Get it Here-|-Robotic Notes-|-Powered by Blogger -|- Designed by Erick Elfrada -